  0
SECTION
  2
HEADER
  9
$ACADVER
  1
AC1015
  9
$ACADMAINTVER
 70
     6
  9
$DWGCODEPAGE
  3
ANSI_1254
  9
$INSBASE
 10
0.0
 20
0.0
 30
0.0
  9
$EXTMIN
 10
0.0
 20
0.0
 30
0.0
  9
$EXTMAX
 10
279.4
 20
215.9
 30
0.0
  9
$LIMMIN
 10
0.0
 20
0.0
  9
$LIMMAX
 10
279.4
 20
215.9
  9
$ORTHOMODE
 70
     0
  9
$REGENMODE
 70
     1
  9
$FILLMODE
 70
     1
  9
$QTEXTMODE
 70
     0
  9
$MIRRTEXT
 70
     1
  9
$LTSCALE
 40
1.0
  9
$ATTMODE
 70
     1
  9
$TEXTSIZE
 40
3.5
  9
$TRACEWID
 40
1.0
  9
$TEXTSTYLE
  7
Standard
  9
$CLAYER
  8
0
  9
$CELTYPE
  6
ByLayer
  9
$CECOLOR
 62
   256
  9
$CELTSCALE
 40
1.0
  9
$DISPSILH
 70
     0
  9
$DIMSCALE
 40
1.0
  9
$DIMASZ
 40
3.5
  9
$DIMEXO
 40
1.0
  9
$DIMDLI
 40
3.75
  9
$DIMRND
 40
0.0
  9
$DIMDLE
 40
0.0
  9
$DIMEXE
 40
1.0
  9
$DIMTP
 40
0.0
  9
$DIMTM
 40
0.0
  9
$DIMTXT
 40
3.5
  9
$DIMCEN
 40
2.5
  9
$DIMTSZ
 40
0.0
  9
$DIMTOL
 70
     0
  9
$DIMLIM
 70
     0
  9
$DIMTIH
 70
     1
  9
$DIMTOH
 70
     1
  9
$DIMSE1
 70
     0
  9
$DIMSE2
 70
     0
  9
$DIMTAD
 70
     1
  9
$DIMZIN
 70
     0
  9
$DIMBLK
  1

  9
$DIMASO
 70
     1
  9
$DIMSHO
 70
     1
  9
$DIMPOST
  1

  9
$DIMAPOST
  1

  9
$DIMALT
 70
     0
  9
$DIMALTD
 70
     3
  9
$DIMALTF
 40
0.0393700787
  9
$DIMLFAC
 40
1.0
  9
$DIMTOFL
 70
     1
  9
$DIMTVP
 40
0.0
  9
$DIMTIX
 70
     0
  9
$DIMSOXD
 70
     0
  9
$DIMSAH
 70
     0
  9
$DIMBLK1
  1

  9
$DIMBLK2
  1

  9
$DIMSTYLE
  2
ISO-25
  9
$DIMCLRD
 70
     0
  9
$DIMCLRE
 70
     0
  9
$DIMCLRT
 70
     0
  9
$DIMTFAC
 40
1.0
  9
$DIMGAP
 40
1.524
  9
$DIMJUST
 70
     0
  9
$DIMSD1
 70
     0
  9
$DIMSD2
 70
     0
  9
$DIMTOLJ
 70
     0
  9
$DIMTZIN
 70
     0
  9
$DIMALTZ
 70
     0
  9
$DIMALTTZ
 70
     0
  9
$DIMUPT
 70
     0
  9
$DIMDEC
 70
     2
  9
$DIMTDEC
 70
     2
  9
$DIMALTU
 70
     2
  9
$DIMALTTD
 70
     3
  9
$DIMTXSTY
  7
Standard
  9
$DIMAUNIT
 70
     0
  9
$DIMADEC
 70
     2
  9
$DIMALTRND
 40
0.0
  9
$DIMAZIN
 70
     0
  9
$DIMDSEP
 70
    44
  9
$DIMATFIT
 70
     3
  9
$DIMFRAC
 70
     0
  9
$DIMLDRBLK
  1

  9
$DIMLUNIT
 70
     2
  9
$DIMLWD
 70
    -2
  9
$DIMLWE
 70
    -2
  9
$DIMTMOVE
 70
     0
  9
$LUNITS
 70
     2
  9
$LUPREC
 70
     2
  9
$SKETCHINC
 40
1.0
  9
$FILLETRAD
 40
10.0
  9
$AUNITS
 70
     0
  9
$AUPREC
 70
     2
  9
$MENU
  1
.
  9
$ELEVATION
 40
0.0
  9
$PELEVATION
 40
0.0
  9
$THICKNESS
 40
0.0
  9
$LIMCHECK
 70
     0
  9
$CHAMFERA
 40
0.0
  9
$CHAMFERB
 40
0.0
  9
$CHAMFERC
 40
0.0
  9
$CHAMFERD
 40
0.0
  9
$SKPOLY
 70
     0
  9
$TDCREATE
 40
2458985.633342836
  9
$TDUCREATE
 40
2458985.508342836
  9
$TDUPDATE
 40
2458985.633343079
  9
$TDUUPDATE
 40
2458985.508343079
  9
$TDINDWG
 40
0.0000000116
  9
$TDUSRTIMER
 40
0.0000000116
  9
$USRTIMER
 70
     1
  9
$ANGBASE
 50
0.0
  9
$ANGDIR
 70
     0
  9
$PDMODE
 70
     0
  9
$PDSIZE
 40
-1.0
  9
$PLINEWID
 40
0.0
  9
$SPLFRAME
 70
     0
  9
$SPLINETYPE
 70
     6
  9
$SPLINESEGS
 70
     8
  9
$HANDSEED
  5
CE
  9
$SURFTAB1
 70
     6
  9
$SURFTAB2
 70
     6
  9
$SURFTYPE
 70
     6
  9
$SURFU
 70
     6
  9
$SURFV
 70
     6
  9
$UCSBASE
  2

  9
$UCSNAME
  2

  9
$UCSORG
 10
0.0
 20
0.0
 30
0.0
  9
$UCSXDIR
 10
1.0
 20
0.0
 30
0.0
  9
$UCSYDIR
 10
0.0
 20
1.0
 30
0.0
  9
$UCSORTHOREF
  2

  9
$UCSORTHOVIEW
 70
     0
  9
$UCSORGTOP
 10
0.0
 20
0.0
 30
0.0
  9
$UCSORGBOTTOM
 10
0.0
 20
0.0
 30
0.0
  9
$UCSORGLEFT
 10
0.0
 20
0.0
 30
0.0
  9
$UCSORGRIGHT
 10
0.0
 20
0.0
 30
0.0
  9
$UCSORGFRONT
 10
0.0
 20
0.0
 30
0.0
  9
$UCSORGBACK
 10
0.0
 20
0.0
 30
0.0
  9
$PUCSBASE
  2

  9
$PUCSNAME
  2

  9
$PUCSORG
 10
0.0
 20
0.0
 30
0.0
  9
$PUCSXDIR
 10
1.0
 20
0.0
 30
0.0
  9
$PUCSYDIR
 10
0.0
 20
1.0
 30
0.0
  9
$PUCSORTHOREF
  2

  9
$PUCSORTHOVIEW
 70
     0
  9
$PUCSORGTOP
 10
0.0
 20
0.0
 30
0.0
  9
$PUCSORGBOTTOM
 10
0.0
 20
0.0
 30
0.0
  9
$PUCSORGLEFT
 10
0.0
 20
0.0
 30
0.0
  9
$PUCSORGRIGHT
 10
0.0
 20
0.0
 30
0.0
  9
$PUCSORGFRONT
 10
0.0
 20
0.0
 30
0.0
  9
$PUCSORGBACK
 10
0.0
 20
0.0
 30
0.0
  9
$USERI1
 70
     0
  9
$USERI2
 70
     0
  9
$USERI3
 70
     0
  9
$USERI4
 70
     0
  9
$USERI5
 70
     0
  9
$USERR1
 40
0.0
  9
$USERR2
 40
0.0
  9
$USERR3
 40
0.0
  9
$USERR4
 40
0.0
  9
$USERR5
 40
0.0
  9
$WORLDVIEW
 70
     1
  9
$SHADEDGE
 70
     3
  9
$SHADEDIF
 70
    70
  9
$TILEMODE
 70
     1
  9
$MAXACTVP
 70
    64
  9
$PINSBASE
 10
0.0
 20
0.0
 30
0.0
  9
$PLIMCHECK
 70
     0
  9
$PEXTMIN
 10
1.0000000000E+20
 20
1.0000000000E+20
 30
1.0000000000E+20
  9
$PEXTMAX
 10
-1.0000000000E+20
 20
-1.0000000000E+20
 30
-1.0000000000E+20
  9
$PLIMMIN
 10
0.0
 20
0.0
  9
$PLIMMAX
 10
420.0
 20
297.0
  9
$UNITMODE
 70
     0
  9
$VISRETAIN
 70
     1
  9
$PLINEGEN
 70
     0
  9
$PSLTSCALE
 70
     1
  9
$TREEDEPTH
 70
  3020
  9
$CMLSTYLE
  2
Standard
  9
$CMLJUST
 70
     0
  9
$CMLSCALE
 40
20.0
  9
$PROXYGRAPHICS
 70
     1
  9
$MEASUREMENT
 70
     1
  9
$CELWEIGHT
370
    -1
  9
$ENDCAPS
280
     0
  9
$JOINSTYLE
280
     0
  9
$LWDISPLAY
290
     1
  9
$INSUNITS
 70
     4
  9
$HYPERLINKBASE
  1

  9
$STYLESHEET
  1

  9
$XEDIT
290
     1
  9
$CEPSNTYPE
380
     0
  9
$PSTYLEMODE
290
     1
  9
$FINGERPRINTGUID
  2
{60769246-551f-4d58-8ef6-95ef51007fba}
  9
$VERSIONGUID
  2
{FAEB1C32-E019-11D5-929B-00C0DF256EC4}
  9
$EXTNAMES
290
     1
  9
$PSVPSCALE
 40
0.0
  9
$OLESTARTUP
290
     0
  0
ENDSEC
  0
SECTION
  2
CLASSES
  0
CLASS
  1
ACDBDICTIONARYWDFLT
  2
AcDbDictionaryWithDefault
  3
ObjectDBX Classes
 90
        0
280
     0
281
     0
  0
CLASS
  1
VISUALSTYLE
  2
AcDbVisualStyle
  3
ObjectDBX Classes
 90
     4095
280
     0
281
     0
  0
CLASS
  1
MATERIAL
  2
AcDbMaterial
  3
ObjectDBX Classes
 90
     1153
280
     0
281
     0
  0
CLASS
  1
SCALE
  2
AcDbScale
  3
ObjectDBX Classes
 90
     1153
280
     0
281
     0
  0
CLASS
  1
TABLESTYLE
  2
AcDbTableStyle
  3
ObjectDBX Classes
 90
     4095
280
     0
281
     0
  0
CLASS
  1
MLEADERSTYLE
  2
AcDbMLeaderStyle
  3
ACDB_MLEADERSTYLE_CLASS
 90
     4095
280
     0
281
     0
  0
CLASS
  1
SUN
  2
AcDbSun
  3
SCENEOE
 90
     1153
280
     0
281
     0
  0
CLASS
  1
ACDBPLACEHOLDER
  2
AcDbPlaceHolder
  3
ObjectDBX Classes
 90
        0
280
     0
281
     0
  0
CLASS
  1
LAYOUT
  2
AcDbLayout
  3
ObjectDBX Classes
 90
        0
280
     0
281
     0
  0
ENDSEC
  0
SECTION
  2
TABLES
  0
TABLE
  2
VPORT
  5
8
330
0
100
AcDbSymbolTable
 70
     1
  0
VPORT
  5
29
330
8
100
AcDbSymbolTableRecord
100
AcDbViewportTableRecord
  2
*Active
 70
     0
 10
0.0
 20
0.0
 11
1.0
 21
1.0
 12
139.7
 22
107.95
 13
0.0
 23
0.0
 14
10.0
 24
10.0
 15
10.0
 25
10.0
 16
0.0
 26
0.0
 36
1.0
 17
0.0
 27
0.0
 37
0.0
 40
215.9
 41
1.2941176471
 42
50.0
 43
0.0
 44
0.0
 50
0.0
 51
0.0
 71
     0
 72
  2000
 73
     1
 74
     3
 75
     0
 76
     0
 77
     0
 78
     0
281
     0
 65
     1
110
0.0
120
0.0
130
0.0
111
1.0
121
0.0
131
0.0
112
0.0
122
1.0
132
0.0
 79
     0
146
0.0
  0
ENDTAB
  0
TABLE
  2
LTYPE
  5
5
330
0
100
AcDbSymbolTable
 70
     6
  0
LTYPE
  5
14
330
5
100
AcDbSymbolTableRecord
100
AcDbLinetypeTableRecord
  2
ByBlock
 70
     0
  3

 72
    65
 73
     0
 40
0.0
  0
LTYPE
  5
15
330
5
100
AcDbSymbolTableRecord
100
AcDbLinetypeTableRecord
  2
ByLayer
 70
     0
  3

 72
    65
 73
     0
 40
0.0
  0
LTYPE
  5
16
330
5
100
AcDbSymbolTableRecord
100
AcDbLinetypeTableRecord
  2
Continuous
 70
     0
  3
Solid line
 72
    65
 73
     0
 40
0.0
  0
LTYPE
  5
6E
330
5
100
AcDbSymbolTableRecord
100
AcDbLinetypeTableRecord
  2
HIDDEN
 70
     0
  3
Hidden __ __ __ __ __ __ __ __ __ __ __ __ __ __
 72
    65
 73
     2
 40
1.905
 49
1.27
 74
     0
 49
-0.635
 74
     0
  0
LTYPE
  5
6F
330
5
100
AcDbSymbolTableRecord
100
AcDbLinetypeTableRecord
  2
PHANTOM
 70
     0
  3
Phantom ______  __  __  ______  __  __  ______
 72
    65
 73
     6
 40
12.7
 49
6.35
 74
     0
 49
-1.27
 74
     0
 49
1.27
 74
     0
 49
-1.27
 74
     0
 49
1.27
 74
     0
 49
-1.27
 74
     0
  0
LTYPE
  5
70
330
5
100
AcDbSymbolTableRecord
100
AcDbLinetypeTableRecord
  2
CENTER
 70
     0
  3
Center ____ _ ____ _ ____ _ ____ _ ____ _ ____
 72
    65
 73
     4
 40
10.16
 49
6.35
 74
     0
 49
-1.27
 74
     0
 49
1.27
 74
     0
 49
-1.27
 74
     0
  0
LTYPE
  5
71
330
5
100
AcDbSymbolTableRecord
100
AcDbLinetypeTableRecord
  2
CENTERX2
 70
     0
  3
Center (2x) ________  __  ________  __  _____
 72
    65
 73
     4
 40
20.32
 49
12.7
 74
     0
 49
-2.54
 74
     0
 49
2.54
 74
     0
 49
-2.54
 74
     0
  0
LTYPE
  5
72
330
5
100
AcDbSymbolTableRecord
100
AcDbLinetypeTableRecord
  2
DOT2
 70
     0
  3
Dot (.5x) ........................................
 72
    65
 73
     2
 40
0.635
 49
0.0
 74
     0
 49
-0.635
 74
     0
  0
ENDTAB
  0
TABLE
  2
LAYER
  5
2
330
0
100
AcDbSymbolTable
 70
    17
  0
LAYER
  5
10
330
2
100
AcDbSymbolTableRecord
100
AcDbLayerTableRecord
  2
0
 70
     0
 62
     7
  6
Continuous
370
    -3
390
F
  0
LAYER
  5
73
330
2
100
AcDbSymbolTableRecord
100
AcDbLayerTableRecord
  2
FORMAT
 70
     0
 62
     7
  6
Continuous
370
    -3
390
F
  0
LAYER
  5
74
330
2
100
AcDbSymbolTableRecord
100
AcDbLayerTableRecord
  2
YARDIMCI_GEOMETRI
 70
     0
 62
    -6
  6
Continuous
290
     0
370
    -3
390
F
  0
LAYER
  5
75
330
2
100
AcDbSymbolTableRecord
100
AcDbLayerTableRecord
  2
SAYFA_CERCEVESI
 70
     0
 62
     7
  6
Continuous
370
    25
390
F
  0
LAYER
  5
76
330
2
100
AcDbSymbolTableRecord
100
AcDbLayerTableRecord
  2
ANTET
 70
     0
 62
     7
  6
Continuous
370
    -3
390
F
  0
LAYER
  5
77
330
2
100
AcDbSymbolTableRecord
100
AcDbLayerTableRecord
  2
OLCU
 70
     0
 62
   150
  6
Continuous
370
    -3
390
F
  0
LAYER
  5
78
330
2
100
AcDbSymbolTableRecord
100
AcDbLayerTableRecord
  2
METIN
 70
     0
 62
    96
  6
Continuous
370
    -3
390
F
  0
LAYER
  5
79
330
2
100
AcDbSymbolTableRecord
100
AcDbLayerTableRecord
  2
BALON
 70
     0
 62
     5
  6
Continuous
370
    -3
390
F
  0
LAYER
  5
7A
330
2
100
AcDbSymbolTableRecord
100
AcDbLayerTableRecord
  2
VURGU
 70
     0
 62
     7
  6
Continuous
370
    -3
390
F
  0
LAYER
  5
7B
330
2
100
AcDbSymbolTableRecord
100
AcDbLayerTableRecord
  2
SILIK
 70
     0
 62
     7
  6
Continuous
370
    -3
390
F
  0
LAYER
  5
7C
330
2
100
AcDbSymbolTableRecord
100
AcDbLayerTableRecord
  2
MODEL
 70
     0
 62
     7
  6
Continuous
370
    -3
390
F
  0
LAYER
  5
7D
330
2
100
AcDbSymbolTableRecord
100
AcDbLayerTableRecord
  2
DETAYLANDıRMA
 70
     0
 62
   190
  6
Continuous
370
    -3
390
F
  0
LAYER
  5
7E
330
2
100
AcDbSymbolTableRecord
100
AcDbLayerTableRecord
  2
TOLERANS
 70
     0
 62
   230
  6
Continuous
370
    -3
390
F
  0
LAYER
  5
7F
330
2
100
AcDbSymbolTableRecord
100
AcDbLayerTableRecord
  2
MERKEZ_CIZGILERI
 70
     0
 62
    30
  6
Continuous
370
    -3
390
F
  0
LAYER
  5
80
330
2
100
AcDbSymbolTableRecord
100
AcDbLayerTableRecord
  2
KESIT-DETAY_CIZGILERI
 70
     0
 62
     7
  6
Continuous
370
    -3
390
F
  0
LAYER
  5
81
330
2
100
AcDbSymbolTableRecord
100
AcDbLayerTableRecord
  2
\U+041E\U+0421\U+0415\U+0412\U+042B\U+0415
 70
     0
 62
     7
  6
Continuous
370
    -3
390
F
  0
LAYER
  5
82
330
2
100
AcDbSymbolTableRecord
100
AcDbLayerTableRecord
  2
\U+0412\U+041E\U+0414\U+042F\U+041D\U+042B\U+0415_\U+0417\U+041D\U+0410\U+041A\U+0418
 70
     0
 62
    11
  6
Continuous
370
    -3
390
F
  0
ENDTAB
  0
TABLE
  2
STYLE
  5
3
330
0
100
AcDbSymbolTable
 70
     1
  0
STYLE
  5
11
330
3
100
AcDbSymbolTableRecord
100
AcDbTextStyleTableRecord
  2
Standard
 70
     0
 40
0.0
 41
1.0
 50
0.0
 71
     0
 42
3.5
  3
txt
  4

  0
ENDTAB
  0
TABLE
  2
VIEW
  5
6
330
0
100
AcDbSymbolTable
 70
     0
  0
ENDTAB
  0
TABLE
  2
UCS
  5
7
330
0
100
AcDbSymbolTable
 70
     0
  0
ENDTAB
  0
TABLE
  2
APPID
  5
9
330
0
100
AcDbSymbolTable
 70
     1
  0
APPID
  5
12
330
9
100
AcDbSymbolTableRecord
100
AcDbRegAppTableRecord
  2
ACAD
 70
     0
  0
ENDTAB
  0
TABLE
  2
DIMSTYLE
  5
A
330
0
100
AcDbSymbolTable
 70
     1
100
AcDbDimStyleTable
  0
DIMSTYLE
105
27
330
A
100
AcDbSymbolTableRecord
100
AcDbDimStyleTableRecord
  2
ISO-25
 70
     0
 41
2.5
 42
0.625
 43
3.75
 44
1.25
 73
     0
 74
     0
 77
     1
 78
     8
140
2.5
141
2.5
143
0.0393700787
147
0.625
171
     3
172
     1
178
     0
271
     2
272
     2
274
     3
278
    44
283
     0
284
     8
340
11
  0
ENDTAB
  0
TABLE
  2
BLOCK_RECORD
  5
1
330
0
100
AcDbSymbolTable
 70
     2
  0
BLOCK_RECORD
  5
1F
330
1
100
AcDbSymbolTableRecord
100
AcDbBlockTableRecord
  2
*Model_Space
340
22
  0
BLOCK_RECORD
  5
1B
330
1
100
AcDbSymbolTableRecord
100
AcDbBlockTableRecord
  2
*Paper_Space
340
1E
  0
BLOCK_RECORD
  5
23
330
1
100
AcDbSymbolTableRecord
100
AcDbBlockTableRecord
  2
*Paper_Space0
340
26
  0
BLOCK_RECORD
  5
87
330
1
100
AcDbSymbolTableRecord
100
AcDbBlockTableRecord
  2
SW_CENTERMARKSYMBOL_0
340
0
102
{BLKREFS
331
92
102
}
  0
ENDTAB
  0
ENDSEC
  0
SECTION
  2
BLOCKS
  0
BLOCK
  5
20
330
1F
100
AcDbEntity
  8
0
100
AcDbBlockBegin
  2
*Model_Space
 70
     0
 10
0.0
 20
0.0
 30
0.0
  3
*Model_Space
  1

  0
ENDBLK
  5
21
330
1F
100
AcDbEntity
  8
0
100
AcDbBlockEnd
  0
BLOCK
  5
1C
330
1B
100
AcDbEntity
 67
     1
  8
0
100
AcDbBlockBegin
  2
*Paper_Space
 70
     0
 10
0.0
 20
0.0
 30
0.0
  3
*Paper_Space
  1

  0
ENDBLK
  5
1D
330
1B
100
AcDbEntity
 67
     1
  8
0
100
AcDbBlockEnd
  0
BLOCK
  5
24
330
23
100
AcDbEntity
  8
0
100
AcDbBlockBegin
  2
*Paper_Space0
 70
     0
 10
0.0
 20
0.0
 30
0.0
  3
*Paper_Space0
  1

  0
ENDBLK
  5
25
330
23
100
AcDbEntity
  8
0
100
AcDbBlockEnd
  0
BLOCK
  5
88
330
87
100
AcDbEntity
  8
0
100
AcDbBlockBegin
  2
SW_CENTERMARKSYMBOL_0
 70
     0
 10
0.0
 20
0.0
 30
0.0
  3
SW_CENTERMARKSYMBOL_0
  1

  0
LINE
  5
8A
330
87
100
AcDbEntity
  8
FORMAT
 62
     0
100
AcDbLine
 10
0.0
 20
0.0
 30
0.0
 11
0.0
 21
2.5
 31
0.0
  0
LINE
  5
8B
330
87
100
AcDbEntity
  8
FORMAT
 62
     0
100
AcDbLine
 10
0.0
 20
0.0
 30
0.0
 11
-2.5
 21
0.0
 31
0.0
  0
LINE
  5
8C
330
87
100
AcDbEntity
  8
FORMAT
 62
     0
100
AcDbLine
 10
0.0
 20
0.0
 30
0.0
 11
0.0
 21
-2.5
 31
0.0
  0
LINE
  5
8D
330
87
100
AcDbEntity
  8
FORMAT
 62
     0
100
AcDbLine
 10
0.0
 20
0.0
 30
0.0
 11
2.5
 21
0.0
 31
0.0
  0
LINE
  5
8E
330
87
100
AcDbEntity
  8
FORMAT
 62
     0
100
AcDbLine
 10
0.0
 20
5.0
 30
0.0
 11
0.0
 21
347.5
 31
0.0
  0
LINE
  5
8F
330
87
100
AcDbEntity
  8
FORMAT
 62
     0
100
AcDbLine
 10
-5.0
 20
0.0
 30
0.0
 11
-347.5
 21
0.0
 31
0.0
  0
LINE
  5
90
330
87
100
AcDbEntity
  8
FORMAT
 62
     0
100
AcDbLine
 10
0.0
 20
-5.0
 30
0.0
 11
0.0
 21
-347.5
 31
0.0
  0
LINE
  5
91
330
87
100
AcDbEntity
  8
FORMAT
 62
     0
100
AcDbLine
 10
5.0
 20
0.0
 30
0.0
 11
347.5
 21
0.0
 31
0.0
  0
ENDBLK
  5
89
330
87
100
AcDbEntity
  8
0
100
AcDbBlockEnd
  0
ENDSEC
  0
SECTION
  2
ENTITIES
  0
CIRCLE
  5
83
330
1F
100
AcDbEntity
  8
0
  6
Continuous
 62
     7
370
    25
100
AcDbCircle
 10
142.7066943342
 20
106.3976471814
 30
0.0
 40
280.0
  0
CIRCLE
  5
84
330
1F
100
AcDbEntity
  8
0
  6
Continuous
 62
     7
370
    25
100
AcDbCircle
 10
142.7066943342
 20
106.3976471814
 30
0.0
 40
229.2
  0
CIRCLE
  5
85
330
1F
100
AcDbEntity
  8
0
  6
Continuous
 62
     7
370
    25
100
AcDbCircle
 10
142.7066943342
 20
106.3976471814
 30
0.0
 40
309.0
  0
CIRCLE
  5
86
330
1F
100
AcDbEntity
  8
0
  6
Continuous
 62
     7
370
    25
100
AcDbCircle
 10
142.7066943342
 20
106.3976471814
 30
0.0
 40
345.0
  0
INSERT
  5
92
330
1F
100
AcDbEntity
  8
FORMAT
 62
     7
100
AcDbBlockReference
  2
SW_CENTERMARKSYMBOL_0
 10
142.7066943342
 20
106.3976471814
 30
0.0
  0
LINE
  5
93
330
1F
100
AcDbEntity
  8
0
  6
Continuous
 62
     7
370
    25
100
AcDbLine
 10
487.7066943342
 20
539.5851601051
 30
0.0
 11
487.7066943342
 21
619.5851601051
 31
0.0
  0
LINE
  5
94
330
1F
100
AcDbEntity
  8
0
  6
Continuous
 62
     7
370
    25
100
AcDbLine
 10
-202.2933056658
 20
619.5851601051
 30
0.0
 11
-202.2933056658
 21
539.5851601051
 31
0.0
  0
LINE
  5
95
330
1F
100
AcDbEntity
  8
0
  6
Continuous
 62
     7
370
    25
100
AcDbLine
 10
451.7066943342
 20
619.5851601051
 30
0.0
 11
422.7066943342
 21
727.5851601051
 31
0.0
  0
LINE
  5
96
330
1F
100
AcDbEntity
  8
0
  6
Continuous
 62
     7
370
    25
100
AcDbLine
 10
-137.2933056658
 20
727.5851601051
 30
0.0
 11
-166.2933056658
 21
619.5851601051
 31
0.0
  0
LINE
  5
97
330
1F
100
AcDbEntity
  8
0
  6
Continuous
 62
     7
370
    25
100
AcDbLine
 10
422.7066943342
 20
727.5851601051
 30
0.0
 11
422.7066943342
 21
962.5851601051
 31
0.0
  0
LINE
  5
98
330
1F
100
AcDbEntity
  8
0
  6
Continuous
 62
     7
370
    25
100
AcDbLine
 10
-137.2933056658
 20
962.5851601051
 30
0.0
 11
-137.2933056658
 21
727.5851601051
 31
0.0
  0
LINE
  5
99
330
1F
100
AcDbEntity
  8
0
  6
Continuous
 62
     7
370
    25
100
AcDbLine
 10
487.7066943342
 20
539.5851601051
 30
0.0
 11
-202.2933056658
 21
539.5851601051
 31
0.0
  0
LINE
  5
9A
330
1F
100
AcDbEntity
  8
0
  6
Continuous
 62
     7
370
    25
100
AcDbLine
 10
487.7066943342
 20
619.5851601051
 30
0.0
 11
-202.2933056658
 21
619.5851601051
 31
0.0
  0
LINE
  5
9B
330
1F
100
AcDbEntity
  8
0
  6
Continuous
 62
     7
370
    25
100
AcDbLine
 10
422.7066943342
 20
727.5851601051
 30
0.0
 11
-137.2933056658
 21
727.5851601051
 31
0.0
  0
LINE
  5
9C
330
1F
100
AcDbEntity
  8
0
  6
Continuous
 62
     7
370
    25
100
AcDbLine
 10
422.7066943342
 20
962.5851601051
 30
0.0
 11
-137.2933056658
 21
962.5851601051
 31
0.0
  0
LINE
  5
9D
330
1F
100
AcDbEntity
  8
0
  6
Continuous
 62
     7
370
    25
100
AcDbLine
 10
-334.5692668464
 20
451.3976471814
 30
0.0
 11
-414.5692668464
 21
451.3976471814
 31
0.0
  0
LINE
  5
9E
330
1F
100
AcDbEntity
  8
0
  6
Continuous
 62
     7
370
    25
100
AcDbLine
 10
-414.5692668464
 20
-238.6023528186
 30
0.0
 11
-334.5692668464
 21
-238.6023528186
 31
0.0
  0
LINE
  5
9F
330
1F
100
AcDbEntity
  8
0
  6
Continuous
 62
     7
370
    25
100
AcDbLine
 10
-414.5692668464
 20
415.3976471814
 30
0.0
 11
-522.5692668464
 21
386.3976471814
 31
0.0
  0
LINE
  5
A0
330
1F
100
AcDbEntity
  8
0
  6
Continuous
 62
     7
370
    25
100
AcDbLine
 10
-522.5692668464
 20
-173.6023528186
 30
0.0
 11
-414.5692668464
 21
-202.6023528186
 31
0.0
  0
LINE
  5
A1
330
1F
100
AcDbEntity
  8
0
  6
Continuous
 62
     7
370
    25
100
AcDbLine
 10
-522.5692668464
 20
386.3976471814
 30
0.0
 11
-757.5692668464
 21
386.3976471814
 31
0.0
  0
LINE
  5
A2
330
1F
100
AcDbEntity
  8
0
  6
Continuous
 62
     7
370
    25
100
AcDbLine
 10
-757.5692668464
 20
-173.6023528186
 30
0.0
 11
-522.5692668464
 21
-173.6023528186
 31
0.0
  0
LINE
  5
A3
330
1F
100
AcDbEntity
  8
0
  6
Continuous
 62
     7
370
    25
100
AcDbLine
 10
-334.5692668464
 20
451.3976471814
 30
0.0
 11
-334.5692668464
 21
-238.6023528186
 31
0.0
  0
LINE
  5
A4
330
1F
100
AcDbEntity
  8
0
  6
Continuous
 62
     7
370
    25
100
AcDbLine
 10
-414.5692668464
 20
451.3976471814
 30
0.0
 11
-414.5692668464
 21
-238.6023528186
 31
0.0
  0
LINE
  5
A5
330
1F
100
AcDbEntity
  8
0
  6
Continuous
 62
     7
370
    25
100
AcDbLine
 10
-522.5692668464
 20
386.3976471814
 30
0.0
 11
-522.5692668464
 21
-173.6023528186
 31
0.0
  0
LINE
  5
A6
330
1F
100
AcDbEntity
  8
0
  6
Continuous
 62
     7
370
    25
100
AcDbLine
 10
-757.5692668464
 20
386.3976471814
 30
0.0
 11
-757.5692668464
 21
-173.6023528186
 31
0.0
  0
LINE
  5
A7
330
1F
100
AcDbEntity
  8
0
  6
Continuous
 62
     7
370
    25
100
AcDbLine
 10
685.3715579151
 20
-238.6023528186
 30
0.0
 11
765.3715579151
 21
-238.6023528186
 31
0.0
  0
LINE
  5
A8
330
1F
100
AcDbEntity
  8
0
  6
Continuous
 62
     7
370
    25
100
AcDbLine
 10
765.3715579151
 20
451.3976471814
 30
0.0
 11
685.3715579151
 21
451.3976471814
 31
0.0
  0
LINE
  5
A9
330
1F
100
AcDbEntity
  8
0
  6
Continuous
 62
     7
370
    25
100
AcDbLine
 10
765.3715579151
 20
-202.6023528186
 30
0.0
 11
873.3715579151
 21
-173.6023528186
 31
0.0
  0
LINE
  5
AA
330
1F
100
AcDbEntity
  8
0
  6
Continuous
 62
     7
370
    25
100
AcDbLine
 10
873.3715579151
 20
386.3976471814
 30
0.0
 11
765.3715579151
 21
415.3976471814
 31
0.0
  0
LINE
  5
AB
330
1F
100
AcDbEntity
  8
0
  6
Continuous
 62
     7
370
    25
100
AcDbLine
 10
873.3715579151
 20
-173.6023528186
 30
0.0
 11
1108.3715579151
 21
-173.6023528186
 31
0.0
  0
LINE
  5
AC
330
1F
100
AcDbEntity
  8
0
  6
Continuous
 62
     7
370
    25
100
AcDbLine
 10
1108.3715579151
 20
386.3976471814
 30
0.0
 11
873.3715579151
 21
386.3976471814
 31
0.0
  0
LINE
  5
AD
330
1F
100
AcDbEntity
  8
0
  6
Continuous
 62
     7
370
    25
100
AcDbLine
 10
685.3715579151
 20
106.3976471814
 30
0.0
 11
685.3715579151
 21
451.3976471814
 31
0.0
  0
LINE
  5
AE
330
1F
100
AcDbEntity
  8
0
  6
Continuous
 62
     7
370
    25
100
AcDbLine
 10
685.3715579151
 20
-238.6023528186
 30
0.0
 11
685.3715579151
 21
106.3976471814
 31
0.0
  0
LINE
  5
AF
330
1F
100
AcDbEntity
  8
0
  6
Continuous
 62
     7
370
    25
100
AcDbLine
 10
765.3715579151
 20
106.3976471814
 30
0.0
 11
765.3715579151
 21
451.3976471814
 31
0.0
  0
LINE
  5
B0
330
1F
100
AcDbEntity
  8
0
  6
Continuous
 62
     7
370
    25
100
AcDbLine
 10
765.3715579151
 20
-238.6023528186
 30
0.0
 11
765.3715579151
 21
106.3976471814
 31
0.0
  0
LINE
  5
B1
330
1F
100
AcDbEntity
  8
0
  6
Continuous
 62
     7
370
    25
100
AcDbLine
 10
873.3715579151
 20
106.3976471814
 30
0.0
 11
873.3715579151
 21
386.3976471814
 31
0.0
  0
LINE
  5
B2
330
1F
100
AcDbEntity
  8
0
  6
Continuous
 62
     7
370
    25
100
AcDbLine
 10
873.3715579151
 20
-173.6023528186
 30
0.0
 11
873.3715579151
 21
106.3976471814
 31
0.0
  0
LINE
  5
B3
330
1F
100
AcDbEntity
  8
0
  6
Continuous
 62
     7
370
    25
100
AcDbLine
 10
1108.3715579151
 20
106.3976471814
 30
0.0
 11
1108.3715579151
 21
386.3976471814
 31
0.0
  0
LINE
  5
B4
330
1F
100
AcDbEntity
  8
0
  6
Continuous
 62
     7
370
    25
100
AcDbLine
 10
1108.3715579151
 20
-173.6023528186
 30
0.0
 11
1108.3715579151
 21
106.3976471814
 31
0.0
  0
LINE
  5
B5
330
1F
100
AcDbEntity
  8
0
  6
Continuous
 62
     7
370
    25
100
AcDbLine
 10
-202.2933056658
 20
-413.0355087898
 30
0.0
 11
-202.2933056658
 21
-493.0355087898
 31
0.0
  0
LINE
  5
B6
330
1F
100
AcDbEntity
  8
0
  6
Continuous
 62
     7
370
    25
100
AcDbLine
 10
487.7066943342
 20
-493.0355087898
 30
0.0
 11
487.7066943342
 21
-413.0355087898
 31
0.0
  0
LINE
  5
B7
330
1F
100
AcDbEntity
  8
0
  6
Continuous
 62
     7
370
    25
100
AcDbLine
 10
-166.2933056658
 20
-493.0355087898
 30
0.0
 11
-137.2933056658
 21
-601.0355087898
 31
0.0
  0
LINE
  5
B8
330
1F
100
AcDbEntity
  8
0
  6
Continuous
 62
     7
370
    25
100
AcDbLine
 10
422.7066943342
 20
-601.0355087898
 30
0.0
 11
451.7066943342
 21
-493.0355087898
 31
0.0
  0
LINE
  5
B9
330
1F
100
AcDbEntity
  8
0
  6
Continuous
 62
     7
370
    25
100
AcDbLine
 10
-137.2933056658
 20
-601.0355087898
 30
0.0
 11
-137.2933056658
 21
-836.0355087898
 31
0.0
  0
LINE
  5
BA
330
1F
100
AcDbEntity
  8
0
  6
Continuous
 62
     7
370
    25
100
AcDbLine
 10
422.7066943342
 20
-836.0355087898
 30
0.0
 11
422.7066943342
 21
-601.0355087898
 31
0.0
  0
LINE
  5
BB
330
1F
100
AcDbEntity
  8
0
  6
Continuous
 62
     7
370
    25
100
AcDbLine
 10
-202.2933056658
 20
-413.0355087898
 30
0.0
 11
487.7066943342
 21
-413.0355087898
 31
0.0
  0
LINE
  5
BC
330
1F
100
AcDbEntity
  8
0
  6
Continuous
 62
     7
370
    25
100
AcDbLine
 10
-202.2933056658
 20
-493.0355087898
 30
0.0
 11
487.7066943342
 21
-493.0355087898
 31
0.0
  0
LINE
  5
BD
330
1F
100
AcDbEntity
  8
0
  6
Continuous
 62
     7
370
    25
100
AcDbLine
 10
-137.2933056658
 20
-601.0355087898
 30
0.0
 11
422.7066943342
 21
-601.0355087898
 31
0.0
  0
LINE
  5
BE
330
1F
100
AcDbEntity
  8
0
  6
Continuous
 62
     7
370
    25
100
AcDbLine
 10
-137.2933056658
 20
-836.0355087898
 30
0.0
 11
422.7066943342
 21
-836.0355087898
 31
0.0
  0
LINE
  5
BF
330
1F
100
AcDbEntity
  8
0
  6
Continuous
 62
     7
370
    25
100
AcDbLine
 10
724.1743787799
 20
-450.3337312511
 30
0.0
 11
614.5009623814
 21
-557.3783478501
 31
0.0
  0
LINE
  5
C0
330
1F
100
AcDbEntity
  8
0
  6
Continuous
 62
     7
370
    25
100
AcDbLine
 10
1005.6487312257
 20
-958.1319166777
 30
0.0
 11
1115.3221476243
 21
-851.0873000787
 31
0.0
  0
LINE
  5
C1
330
1F
100
AcDbEntity
  8
0
  6
Continuous
 62
     7
370
    25
100
AcDbLine
 10
712.7786778461
 20
-442.5067596608
 30
0.0
 11
699.8589734622
 21
-474.0663122644
 31
0.0
  0
LINE
  5
C2
330
1F
100
AcDbEntity
  8
0
  6
Continuous
 62
     7
370
    25
100
AcDbLine
 10
1091.0067423065
 20
-874.819881092
 30
0.0
 11
1122.8703961724
 21
-862.6695031465
 31
0.0
  0
LINE
  5
C3
330
1F
100
AcDbEntity
  8
0
  6
Continuous
 62
     7
370
    25
100
AcDbLine
 10
766.5120315865
 20
-318.1819987329
 30
0.0
 11
729.1764004721
 21
-354.6227192773
 31
0.0
  0
LINE
  5
C4
330
1F
100
AcDbEntity
  8
0
  6
Continuous
 62
     7
370
    25
100
AcDbLine
 10
1211.126329941
 20
-848.4083665827
 30
0.0
 11
1248.4619610554
 21
-811.9676460384
 31
0.0
  0
LWPOLYLINE
  5
C5
330
1F
100
AcDbEntity
  8
0
  6
Continuous
 62
     7
370
    25
100
AcDbPolyline
 90
      178
 70
   128
 43
0.0
 10
562.4377727339
 20
-690.4526817524
 10
562.5937830319
 20
-681.9770549782
 10
563.0616173543
 20
-673.5969079336
 10
563.8406862338
 20
-665.322799532
 10
564.9300080504
 20
-657.1651550794
 10
566.3282102678
 20
-649.134253138
 10
568.0335311633
 20
-641.2402125755
 10
570.0438220469
 20
-633.4929798157
 10
572.3565499696
 20
-625.9023163056
 10
574.9688009137
 20
-618.4777862162
 10
577.8772834655
 20
-611.228744392
 10
581.0783329618
 20
-604.1643245637
 10
584.5679161076
 20
-597.2934278399
 10
588.3416360581
 20
-590.6247114918
 10
592.3947379582
 20
-584.1665780448
 10
596.7221149344
 20
-577.927164692
 10
601.3183145285
 20
-571.9143330408
 10
606.1775455685
 20
-566.1356592077
 10
611.2936854646
 20
-560.5984242723
 10
616.6602879245
 20
-555.3096051033
 10
622.2705910749
 20
-550.2758655676
 10
628.1175259818
 20
-545.503548134
 10
634.1937255572
 20
-540.9986658817
 10
640.4915338415
 20
-536.7668949237
 10
647.0030156503
 20
-532.8135672553
 10
653.719966572
 20
-529.1436640356
 10
660.6339233061
 20
-525.7618093112
 10
667.736174326
 20
-522.6722641902
 10
675.0177708562
 20
-519.8789214731
 10
682.4695381474
 20
-517.3853007477
 10
690.0820870365
 20
-515.1945439548
 10
697.8458257769
 20
-513.3094114293
 10
705.7509721243
 20
-511.7322784221
 10
713.7875656618
 20
-510.4651321072
 10
721.9454803503
 20
-509.5095690782
 10
730.214437287
 20
-508.8667933363
 10
738.5840176569
 20
-508.5376147734
 10
747.0436758603
 20
-508.5224481518
 10
755.5827528001
 20
-508.8213125813
 10
764.1904893125
 20
-509.4338314951
 10
772.856039723
 20
-510.3592331248
 10
781.5684855122
 20
-511.5963514721
 10
790.316849073
 20
-513.1436277787
 10
799.0901075419
 20
-514.9991124894
 10
807.8772066884
 20
-517.1604677095
 10
816.6670748426
 20
-519.6249701498
 10
825.4486368459
 20
-522.3895145584
 10
834.2108280051
 20
-525.4506176329
 10
842.9426080344
 20
-528.8044224097
 10
851.6329749656
 20
-532.4467031234
 10
860.2709790106
 20
-536.3728705313
 10
868.8457363582
 20
-540.5779776963
 10
877.3464428875
 20
-545.0567262192
 10
885.7623877809
 20
-549.8034729151
 10
894.0829670197
 20
-554.8122369237
 10
902.2976967454
 20
-560.0767072454
 10
910.3962264686
 20
-565.5902506924
 10
918.3683521112
 20
-571.3459202473
 10
926.2040288631
 20
-577.3364638154
 10
933.8933838384
 20
-583.5543333632
 10
941.4267285157
 20
-589.9916944283
 10
948.7945709451
 20
-596.6404359906
 10
955.9876277082
 20
-603.4921806927
 10
962.9968356148
 20
-610.5382953948
 10
969.8133631231
 20
-617.7699020527
 10
976.4286214665
 20
-625.1778889038
 10
982.8342754762
 20
-632.7529219479
 10
989.0222540828
 20
-640.4854567083
 10
994.9847604863
 20
-648.3657502573
 10
1000.7142819795
 20
-656.3838734923
 10
1006.2035994144
 20
-664.5297236466
 10
1011.4457962979
 20
-672.7930370188
 10
1016.4342675067
 20
-681.1634019045
 10
1021.1627276098
 20
-689.6302717155
 10
1025.6252187879
 20
-698.1829782685
 10
1029.8161183402
 20
-706.8107452261
 10
1033.7301457692
 20
-715.5027016758
 10
1037.3623694337
 20
-724.2478958268
 10
1040.7082127631
 20
-733.0353088092
 10
1043.7634600232
 20
-741.8538685578
 10
1046.5242616287
 20
-750.6924637627
 10
1048.9871389932
 20
-759.5399578696
 10
1051.1489889122
 20
-768.3852031114
 10
1053.0070874734
 20
-777.2170545549
 10
1054.5590934883
 20
-786.0243841427
 10
1055.8030514428
 20
-794.7960947148
 10
1056.7373939604
 20
-803.5211339909
 10
1057.3609437775
 20
-812.1885084961
 10
1057.6729152268
 20
-820.7872974127
 10
1057.6729152268
 20
-829.3066663402
 10
1057.3609437775
 20
-837.7358809464
 10
1056.7373939604
 20
-846.0643204932
 10
1055.8030514428
 20
-854.2814912178
 10
1054.5590934883
 20
-862.3770395555
 10
1053.0070874734
 20
-870.3407651845
 10
1051.1489889122
 20
-878.1626338786
 10
1048.9871389932
 20
-885.8327901501
 10
1046.5242616287
 20
-893.3415696678
 10
1043.7634600232
 20
-900.6795114336
 10
1040.7082127631
 20
-907.8373697037
 10
1037.3623694337
 20
-914.8061256378
 10
1033.7301457692
 20
-921.576998663
 10
1029.8161183402
 20
-928.1414575372
 10
1025.6252187879
 20
-934.4912310984
 10
1021.1627276098
 20
-940.6183186861
 10
1016.4342675067
 20
-946.5150002225
 10
1011.4457962979
 20
-952.1738459391
 10
1006.2035994144
 20
-957.5877257387
 10
1000.7142819795
 20
-962.7498181792
 10
994.9847604863
 20
-967.653619068
 10
989.0222540828
 20
-972.2929496582
 10
982.8342754762
 20
-976.6619644327
 10
976.4286214665
 20
-980.7551584703
 10
969.8133631231
 20
-984.5673743816
 10
962.9968356148
 20
-988.093808807
 10
955.9876277082
 20
-991.3300184694
 10
948.7945709451
 20
-994.2719257722
 10
941.4267285157
 20
-996.9158239375
 10
933.8933838384
 20
-999.258381676
 10
926.204028863
 20
-1001.2966473851
 10
918.3683521112
 20
-1003.0280528675
 10
910.3962264686
 20
-1004.450416567
 10
902.2976967454
 20
-1005.5619463174
 10
894.0829670197
 20
-1006.361241601
 10
885.7623877809
 20
-1006.8472953123
 10
877.3464428875
 20
-1007.0194950279
 10
868.8457363582
 20
-1006.8776237777
 10
860.2709790106
 20
-1006.4218603181
 10
851.6329749656
 20
-1005.6527789073
 10
842.9426080344
 20
-1004.5713485813
 10
834.2108280051
 20
-1003.178931933
 10
825.4486368459
 20
-1001.4772833954
 10
816.6670748426
 20
-999.4685470312
 10
807.8772066884
 20
-997.1552538311
 10
799.0901075419
 20
-994.5403185247
 10
790.316849073
 20
-991.6270359081
 10
781.5684855122
 20
-988.4190766925
 10
772.856039723
 20
-984.9204828791
 10
764.1904893125
 20
-981.1356626662
 10
755.5827528001
 20
-977.0693848949
 10
747.0436758603
 20
-972.7267730404
 10
738.5840176569
 20
-968.1132987565
 10
730.214437287
 20
-963.2347749814
 10
721.9454803503
 20
-958.0973486134
 10
713.7875656618
 20
-952.7074927656
 10
705.7509721243
 20
-947.0719986105
 10
697.8458257769
 20
-941.1979668224
 10
690.0820870364
 20
-935.0927986312
 10
682.4695381474
 20
-928.7641864966
 10
675.0177708562
 20
-922.2201044158
 10
667.736174326
 20
-915.4687978763
 10
660.6339233061
 20
-908.5187734666
 10
653.719966572
 20
-901.3787881579
 10
647.0030156503
 20
-894.0578382709
 10
640.4915338415
 20
-886.5651481396
 10
634.1937255572
 20
-878.9101584897
 10
628.1175259818
 20
-871.1025145425
 10
622.2705910749
 20
-863.1520538629
 10
616.6602879245
 20
-855.0687939631
 10
611.2936854646
 20
-846.8629196817
 10
606.1775455685
 20
-838.54477035
 10
601.3183145285
 20
-830.124826765
 10
596.7221149344
 20
-821.6136979837
 10
592.3947379582
 20
-813.0221079557
 10
588.3416360581
 20
-804.3608820107
 10
584.5679161076
 20
-795.6409332196
 10
581.0783329618
 20
-786.8732486432
 10
577.8772834655
 20
-778.0688754891
 10
574.9688009137
 20
-769.2389071922
 10
572.3565499696
 20
-760.3944694371
 10
570.0438220469
 20
-751.5467061398
 10
568.0335311633
 20
-742.7067654062
 10
566.3282102678
 20
-733.8857854863
 10
564.9300080504
 20
-725.0948807392
 10
563.8406862338
 20
-716.3451276297
 10
563.0616173543
 20
-707.6475507721
 10
562.5937830319
 20
-699.0131090387
 10
562.4377727339
 20
-690.4526817524
  0
LWPOLYLINE
  5
C6
330
1F
100
AcDbEntity
  8
0
  6
Continuous
 62
     7
370
    25
100
AcDbPolyline
 90
      161
 70
   128
 43
0.0
 10
607.3662133151
 20
-702.6632692023
 10
607.5224943252
 20
-694.9926518473
 10
607.9910963815
 20
-687.4188096881
 10
608.7712969337
 20
-679.9534210401
 10
609.861892969
 20
-672.6079969917
 10
611.2612028674
 20
-665.3938636543
 10
612.9670689944
 20
-658.3221446986
 10
614.9768610282
 20
-651.4037442026
 10
617.2874800151
 20
-644.6493298386
 10
619.895363148
 20
-638.0693164238
 10
622.7964892602
 20
-631.6738498621
 10
625.9863850256
 20
-625.4727914993
 10
629.460131856
 20
-619.4757029179
 10
633.2123734857
 20
-613.6918311939
 10
637.2373242299
 20
-608.1300946382
 10
641.5287779065
 20
-602.7990690454
 10
646.0801174049
 20
-597.7069744708
 10
650.8843248894
 20
-592.8616625549
 10
655.9339926203
 20
-588.2706044176
 10
661.221334376
 20
-583.9408791377
 10
666.7381974588
 20
-579.8791628379
 10
672.4760752656
 20
-576.0917183902
 10
678.4261204048
 20
-572.5843857595
 10
684.579158338
 20
-569.3625729984
 10
690.9257015267
 20
-566.4312479088
 10
697.4559640613
 20
-563.7949303814
 10
704.1598767503
 20
-561.4576854268
 10
711.0271026463
 20
-559.4231169073
 10
718.0470529846
 20
-557.6943619801
 10
725.2089035107
 20
-556.2740862599
 10
732.5016111701
 20
-555.1644797091
 10
739.9139311363
 20
-554.3672532604
 10
747.4344341491
 20
-553.8836361794
 10
755.0515241379
 20
-553.7143741683
 10
762.7534561021
 20
-553.8597282171
 10
770.5283542208
 20
-554.3194742003
 10
778.3642301647
 20
-555.092903223
 10
786.2490015811
 20
-556.1788227135
 10
794.1705107238
 20
-557.5755582629
 10
802.1165432
 20
-559.280956206
 10
810.0748468035
 20
-561.2923869429
 10
818.0331504071
 20
-563.6067489933
 10
825.9791828833
 20
-566.2204737784
 10
833.900692026
 20
-569.1295311242
 10
841.7854634423
 20
-572.3294354752
 10
849.6213393863
 20
-575.8152528106
 10
857.396237505
 20
-579.581608253
 10
865.0981694692
 20
-583.622694355
 10
872.715259458
 20
-587.932280055
 10
880.2357624708
 20
-592.503720284
 10
887.6480824369
 20
-597.3299662127
 10
894.9407900964
 20
-602.4035761195
 10
902.1026406225
 20
-607.7167268659
 10
909.1225909608
 20
-613.2612259583
 10
915.9898168568
 20
-619.0285241812
 10
922.6937295458
 20
-625.0097287786
 10
929.2239920804
 20
-631.1956171666
 10
935.5705352691
 20
-637.5766511536
 10
941.7235732023
 20
-644.1429916479
 10
947.6736183415
 20
-650.8845138282
 10
953.4114961483
 20
-657.7908227559
 10
958.9283592311
 20
-664.8512694034
 10
964.2157009868
 20
-672.0549670736
 10
969.2653687177
 20
-679.3908081869
 10
974.0695762022
 20
-686.8474814079
 10
978.6209157006
 20
-694.4134890871
 10
982.9123693771
 20
-702.0771649889
 10
986.9373201214
 20
-709.8266922807
 10
990.6895617511
 20
-717.650121753
 10
994.1633085815
 20
-725.5353902446
 10
997.3532043469
 20
-733.4703392431
 10
1000.2543304591
 20
-741.4427336322
 10
1002.862213592
 20
-749.4402805577
 10
1005.1728325789
 20
-757.4506483818
 10
1007.1826246126
 20
-765.461485698
 10
1008.8884907397
 20
-773.4604403758
 10
1010.2878006381
 20
-781.4351786068
 10
1011.3783966734
 20
-789.3734039227
 10
1012.1585972255
 20
-797.2628761555
 10
1012.6271992819
 20
-805.0914303108
 10
1012.783480292
 20
-812.8469953254
 10
1012.6271992819
 20
-820.5176126804
 10
1012.1585972255
 20
-828.0914548397
 10
1011.3783966734
 20
-835.5568434876
 10
1010.2878006381
 20
-842.902267536
 10
1008.8884907397
 20
-850.1164008735
 10
1007.1826246126
 20
-857.1881198292
 10
1005.1728325789
 20
-864.1065203251
 10
1002.862213592
 20
-870.8609346891
 10
1000.2543304591
 20
-877.4409481039
 10
997.3532043469
 20
-883.8364146656
 10
994.1633085815
 20
-890.0374730285
 10
990.6895617511
 20
-896.0345616099
 10
986.9373201214
 20
-901.8184333339
 10
982.9123693771
 20
-907.3801698896
 10
978.6209157006
 20
-912.7111954823
 10
974.0695762022
 20
-917.803290057
 10
969.2653687177
 20
-922.6486019729
 10
964.2157009868
 20
-927.2396601102
 10
958.9283592311
 20
-931.56938539
 10
953.4114961483
 20
-935.6311016899
 10
947.6736183415
 20
-939.4185461375
 10
941.7235732023
 20
-942.9258787683
 10
935.5705352691
 20
-946.1476915293
 10
929.2239920804
 20
-949.079016619
 10
922.6937295458
 20
-951.7153341463
 10
915.9898168568
 20
-954.052579101
 10
909.1225909608
 20
-956.0871476205
 10
902.1026406225
 20
-957.8159025477
 10
894.9407900964
 20
-959.2361782678
 10
887.6480824369
 20
-960.3457848186
 10
880.2357624708
 20
-961.1430112673
 10
872.715259458
 20
-961.6266283484
 10
865.0981694692
 20
-961.7958903594
 10
857.396237505
 20
-961.6505363106
 10
849.6213393863
 20
-961.1907903274
 10
841.7854634423
 20
-960.4173613048
 10
833.900692026
 20
-959.3314418142
 10
825.9791828833
 20
-957.9347062649
 10
818.0331504071
 20
-956.2293083217
 10
810.0748468035
 20
-954.2178775848
 10
802.1165432
 20
-951.9035155345
 10
794.1705107238
 20
-949.2897907493
 10
786.2490015811
 20
-946.3807334035
 10
778.3642301647
 20
-943.1808290526
 10
770.5283542208
 20
-939.6950117171
 10
762.7534561021
 20
-935.9286562748
 10
755.0515241379
 20
-931.8875701727
 10
747.4344341491
 20
-927.5779844728
 10
739.9139311363
 20
-923.0065442437
 10
732.5016111701
 20
-918.1802983151
 10
725.2089035107
 20
-913.1066884082
 10
718.0470529846
 20
-907.7935376619
 10
711.0271026463
 20
-902.2490385694
 10
704.1598767503
 20
-896.4817403466
 10
697.4559640613
 20
-890.5005357492
 10
690.9257015267
 20
-884.3146473612
 10
684.579158338
 20
-877.9336133741
 10
678.4261204048
 20
-871.3672728799
 10
672.4760752656
 20
-864.6257506996
 10
666.7381974588
 20
-857.7194417718
 10
661.221334376
 20
-850.6589951243
 10
655.9339926203
 20
-843.4552974541
 10
650.8843248894
 20
-836.1194563409
 10
646.0801174049
 20
-828.6627831198
 10
641.5287779065
 20
-821.0967754407
 10
637.2373242299
 20
-813.4330995388
 10
633.2123734857
 20
-805.6835722471
 10
629.460131856
 20
-797.8601427748
 10
625.9863850256
 20
-789.9748742832
 10
622.7964892602
 20
-782.0399252847
 10
619.895363148
 20
-774.0675308955
 10
617.2874800151
 20
-766.0699839701
 10
614.9768610282
 20
-758.0596161459
 10
612.9670689944
 20
-750.0487788297
 10
611.2612028674
 20
-742.0498241519
 10
609.861892969
 20
-734.0750859209
 10
608.7712969337
 20
-726.136860605
 10
607.9910963815
 20
-718.2473883722
 10
607.5224943252
 20
-710.418834217
 10
607.3662133151
 20
-702.6632692023
  0
LWPOLYLINE
  5
C7
330
1F
100
AcDbEntity
  8
0
  6
Continuous
 62
     7
370
    25
100
AcDbPolyline
 90
       91
 70
   128
 43
0.0
 10
724.1743787799
 20
-450.3337312511
 10
726.3337043231
 20
-448.2649885043
 10
731.9440074735
 20
-443.2312489686
 10
737.7909423803
 20
-438.458931535
 10
743.8671419557
 20
-433.9540492827
 10
750.1649502401
 20
-429.7222783247
 10
756.6764320489
 20
-425.7689506563
 10
763.3933829706
 20
-422.0990474366
 10
770.3073397046
 20
-418.7171927122
 10
777.4095907245
 20
-415.6276475912
 10
784.6911872548
 20
-412.8343048741
 10
792.1429545459
 20
-410.3406841487
 10
799.755503435
 20
-408.1499273558
 10
807.5192421755
 20
-406.2647948303
 10
815.4243885228
 20
-404.6876618231
 10
823.4609820603
 20
-403.4205155082
 10
831.6188967488
 20
-402.4649524792
 10
839.8878536855
 20
-401.8221767373
 10
848.2574340554
 20
-401.4929981744
 10
856.7170922588
 20
-401.4778315528
 10
865.2561691987
 20
-401.7766959823
 10
873.8639057111
 20
-402.3892148961
 10
882.5294561216
 20
-403.3146165258
 10
891.2419019108
 20
-404.5517348731
 10
899.9902654715
 20
-406.0990111796
 10
908.7635239405
 20
-407.9544958904
 10
917.5506230869
 20
-410.1158511105
 10
926.3404912412
 20
-412.5803535508
 10
935.1220532444
 20
-415.3448979594
 10
943.8842444037
 20
-418.4060010339
 10
952.616024433
 20
-421.7598058107
 10
961.3063913642
 20
-425.4020865244
 10
969.9443954092
 20
-429.3282539323
 10
978.5191527568
 20
-433.5333610973
 10
987.0198592861
 20
-438.0121096201
 10
995.4358041794
 20
-442.758856316
 10
1003.7563834183
 20
-447.7676203247
 10
1011.971113144
 20
-453.0320906464
 10
1020.0696428672
 20
-458.5456340934
 10
1028.0417685098
 20
-464.3013036483
 10
1035.8774452616
 20
-470.2918472164
 10
1043.5668002369
 20
-476.5097167642
 10
1051.1001449143
 20
-482.9470778293
 10
1058.4679873437
 20
-489.5958193916
 10
1065.6610441067
 20
-496.4475640937
 10
1072.6702520134
 20
-503.4936787958
 10
1079.4867795216
 20
-510.7252854537
 10
1086.1020378651
 20
-518.1332723048
 10
1092.5076918748
 20
-525.7083053489
 10
1098.6956704814
 20
-533.4408401093
 10
1104.6581768849
 20
-541.3211336583
 10
1110.3876983781
 20
-549.3392568933
 10
1115.877015813
 20
-557.4851070476
 10
1121.1192126964
 20
-565.7484204197
 10
1126.1076839052
 20
-574.1187853054
 10
1130.8361440083
 20
-582.5856551165
 10
1135.2986351864
 20
-591.1383616695
 10
1139.4895347388
 20
-599.7661286271
 10
1143.4035621678
 20
-608.4580850768
 10
1147.0357858323
 20
-617.2032792278
 10
1150.3816291616
 20
-625.9906922102
 10
1153.4368764218
 20
-634.8092519588
 10
1156.1976780273
 20
-643.6478471637
 10
1158.6605553918
 20
-652.4953412706
 10
1160.8224053108
 20
-661.3405865124
 10
1162.6805038719
 20
-670.1724379559
 10
1164.2325098869
 20
-678.9797675437
 10
1165.4764678414
 20
-687.7514781158
 10
1166.410810359
 20
-696.4765173919
 10
1167.0343601761
 20
-705.1438918971
 10
1167.3463316254
 20
-713.7426808137
 10
1167.3463316254
 20
-722.2620497412
 10
1167.0343601761
 20
-730.6912643474
 10
1166.410810359
 20
-739.0197038942
 10
1165.4764678414
 20
-747.2368746188
 10
1164.2325098869
 20
-755.3324229565
 10
1162.6805038719
 20
-763.2961485855
 10
1160.8224053108
 20
-771.1180172796
 10
1158.6605553918
 20
-778.7881735511
 10
1156.1976780273
 20
-786.2969530688
 10
1153.4368764218
 20
-793.6348948346
 10
1150.3816291616
 20
-800.7927531047
 10
1147.0357858323
 20
-807.7615090388
 10
1143.4035621678
 20
-814.532382064
 10
1139.4895347388
 20
-821.0968409382
 10
1135.2986351864
 20
-827.4466144994
 10
1130.8361440083
 20
-833.5737020871
 10
1126.1076839052
 20
-839.4703836235
 10
1121.1192126964
 20
-845.1292293401
 10
1115.8770158129
 20
-850.5431091397
 10
1115.3221476243
 20
-851.0873000787
  0
ARC
  5
C8
330
1F
100
AcDbEntity
  8
0
  6
Continuous
 62
     7
370
    25
100
AcDbCircle
 10
903.7389101985
 20
-585.6369141639
 30
0.0
 40
176.920978385907
100
AcDbArc
 50
170.2245607332
 51
180.1416157841
  0
LWPOLYLINE
  5
C9
330
1F
100
AcDbEntity
  8
0
  6
Continuous
 62
     7
370
    25
100
AcDbPolyline
 90
       52
 70
   128
 43
0.0
 10
1010.2152644911
 20
-843.3231787619
 10
1007.1003413491
 20
-843.756718142
 10
999.688021383
 20
-844.5539445907
 10
992.1675183702
 20
-845.0375616718
 10
984.5504283814
 20
-845.2068236828
 10
976.8484964172
 20
-845.061469634
 10
969.0735982985
 20
-844.6017236508
 10
961.2377223545
 20
-843.8282946282
 10
953.3529509382
 20
-842.7423751376
 10
945.4314417955
 20
-841.3456395883
 10
937.4854093193
 20
-839.6402416451
 10
929.5271057157
 20
-837.6288109082
 10
921.5688021122
 20
-835.3144488579
 10
913.622769636
 20
-832.7007240727
 10
905.7012604933
 20
-829.7916667269
 10
897.8164890769
 20
-826.591762376
 10
889.980613133
 20
-823.1059450405
 10
882.2057150143
 20
-819.3395895982
 10
874.5037830501
 20
-815.2985034961
 10
866.8866930613
 20
-810.9889177962
 10
859.3661900485
 20
-806.4174775671
 10
851.9538700823
 20
-801.5912316385
 10
844.6611624229
 20
-796.5176217316
 10
837.4993118968
 20
-791.2044709853
 10
830.4793615585
 20
-785.6599718928
 10
823.6121356625
 20
-779.89267367
 10
816.9082229735
 20
-773.9114690726
 10
810.3779604389
 20
-767.7255806846
 10
804.0314172502
 20
-761.3445466975
 10
797.878379317
 20
-754.7782062033
 10
791.9283341778
 20
-748.036684023
 10
786.190456371
 20
-741.1303750952
 10
780.6735932882
 20
-734.0699284477
 10
775.3862515325
 20
-726.8662307775
 10
770.3365838016
 20
-719.5303896643
 10
765.5323763171
 20
-712.0737164432
 10
760.9810368187
 20
-704.5077087641
 10
756.6895831421
 20
-696.8440328622
 10
752.6646323979
 20
-689.0945055705
 10
748.9123907682
 20
-681.2710760982
 10
745.4386439378
 20
-673.3858076066
 10
742.2487481724
 20
-665.4508586081
 10
739.3476220602
 20
-657.4784642189
 10
736.7397389273
 20
-649.4809172935
 10
734.4291199404
 20
-641.4705494693
 10
732.4193279066
 20
-633.4597121531
 10
730.7134617796
 20
-625.4607574753
 10
729.3141518812
 20
-617.4860192443
 10
728.2235558459
 20
-609.5477939284
 10
727.4433552937
 20
-601.6583216957
 10
726.9747532374
 20
-593.8297675404
 10
726.8184722273
 20
-586.0742025257
  0
LWPOLYLINE
  5
CA
330
1F
100
AcDbEntity
  8
0
  6
Continuous
 62
     7
370
    25
100
AcDbPolyline
 90
      113
 70
   128
 43
0.0
 10
712.7786778461
 20
-442.5067596608
 10
715.5171785596
 20
-436.1406823301
 10
719.0137962355
 20
-428.8107892632
 10
722.7969664333
 20
-421.6779554532
 10
726.8623724873
 20
-414.7503195929
 10
731.2053756954
 20
-408.0357862404
 10
735.8210206121
 20
-401.5420168001
 10
740.7040407029
 20
-395.2764207808
 10
745.8488643532
 20
-389.2461473412
 10
751.249621226
 20
-383.4580771326
 10
756.9001489597
 20
-377.9188144482
 10
762.7940001996
 20
-372.6346796871
 10
768.9244499546
 20
-367.611702143
 10
775.2845032702
 20
-362.8556131244
 10
781.8669032103
 20
-358.3718394152
 10
788.6641391371
 20
-354.1654970824
 10
795.6684552812
 20
-350.241385639
 10
802.8718595907
 20
-346.6039825673
 10
810.2661328506
 20
-343.2574382103
 10
817.8428380611
 20
-340.2055710356
 10
825.593330064
 20
-337.4518632793
 10
833.5087654074
 20
-334.9994569716
 10
841.5801124359
 20
-332.8511503528
 10
849.7981615962
 20
-331.0093946796
 10
858.1535359451
 20
-329.4762914288
 10
866.6367018488
 20
-328.2535898988
 10
875.2379798613
 20
-327.3426852144
 10
883.9475557682
 20
-326.7446167343
 10
892.7554917855
 20
-326.4600668654
 10
901.6517378984
 20
-326.4893602845
 10
910.6261433287
 20
-326.832463567
 10
919.6684681169
 20
-327.488985226
 10
928.7683948065
 20
-328.4581761583
 10
937.915540216
 20
-329.7389304996
 10
947.0994672867
 20
-331.3297868858
 10
956.309696991
 20
-333.228930121
 10
965.5357202898
 20
-335.4341932482
 10
974.7670101233
 20
-337.9430600224
 10
983.9930334221
 20
-340.7526677808
 10
993.2032631265
 20
-343.8598107102
 10
1002.3871901971
 20
-347.2609435041
 10
1011.5343356066
 20
-350.9521854082
 10
1020.6342622962
 20
-354.9293246487
 10
1029.6765870845
 20
-359.1878232374
 10
1038.6509925147
 20
-363.7228221502
 10
1047.5472386276
 20
-368.5291468712
 10
1056.3551746449
 20
-373.6013132965
 10
1065.0647505518
 20
-378.9335339924
 10
1073.6660285643
 20
-384.5197247982
 10
1082.149194468
 20
-390.3535117689
 10
1090.5045688169
 20
-396.4282384478
 10
1098.7226179772
 20
-402.7369734615
 10
1106.7939650057
 20
-409.2725184289
 10
1114.7094003491
 20
-416.0274161747
 10
1122.459892352
 20
-422.993959238
 10
1130.0365975625
 20
-430.1641986667
 10
1137.4308708224
 20
-437.5299530877
 10
1144.6342751319
 20
-445.0828180414
 10
1151.638591276
 20
-452.814175572
 10
1158.4358272028
 20
-460.7152040603
 10
1165.0182271429
 20
-468.7768882895
 10
1171.3782804585
 20
-476.9900297315
 10
1177.5087302135
 20
-485.3452570431
 10
1183.4025814534
 20
-493.8330367583
 10
1189.0531091871
 20
-502.4436841664
 10
1194.4538660599
 20
-511.1673743626
 10
1199.5986897102
 20
-519.9941534581
 10
1204.481709801
 20
-528.9139499379
 10
1209.0973547177
 20
-537.9165861522
 10
1213.4403579258
 20
-546.99178993
 10
1217.5057639798
 20
-556.129206299
 10
1221.2889341776
 20
-565.3184093015
 10
1224.7855518535
 20
-574.5489138901
 10
1227.9916273032
 20
-583.8101878916
 10
1230.9035023364
 20
-593.0916640244
 10
1233.517854451
 20
-602.3827519558
 10
1235.8317006238
 20
-611.672850386
 10
1237.8424007143
 20
-620.9513591441
 10
1239.5476604772
 20
-630.2076912834
 10
1240.9455341801
 20
-639.4312851609
 10
1242.034426824
 20
-648.6116164887
 10
1242.8130959624
 20
-657.7382103422
 10
1243.2806531197
 20
-666.8006531123
 10
1243.4365648049
 20
-675.7886043873
 10
1243.2806531197
 20
-684.6918087519
 10
1242.8130959624
 20
-693.5001074883
 10
1242.034426824
 20
-702.2034501679
 10
1240.9455341801
 20
-710.7919061188
 10
1239.5476604772
 20
-719.255675757
 10
1237.8424007143
 20
-727.5851017678
 10
1235.8317006238
 20
-735.7706801249
 10
1233.517854451
 20
-743.803070935
 10
1230.9035023364
 20
-751.6731090945
 10
1227.9916273032
 20
-759.3718147471
 10
1224.7855518535
 20
-766.8904035299
 10
1221.2889341776
 20
-774.2202965968
 10
1217.5057639798
 20
-781.3531304068
 10
1213.4403579258
 20
-788.2807662671
 10
1209.0973547177
 20
-794.9952996196
 10
1204.481709801
 20
-801.4890690599
 10
1199.5986897102
 20
-807.7546650792
 10
1194.4538660599
 20
-813.7849385188
 10
1189.0531091871
 20
-819.5730087274
 10
1183.4025814534
 20
-825.1122714119
 10
1177.5087302135
 20
-830.3964061729
 10
1171.3782804585
 20
-835.419383717
 10
1165.0182271429
 20
-840.1754727356
 10
1158.4358272028
 20
-844.6592464448
 10
1151.638591276
 20
-848.8655887776
 10
1144.6342751319
 20
-852.789700221
 10
1137.4308708224
 20
-856.4271032927
 10
1130.0365975625
 20
-859.7736476497
 10
1122.8703961724
 20
-862.6695031465
  0
LWPOLYLINE
  5
CB
330
1F
100
AcDbEntity
  8
0
  6
Continuous
 62
     7
370
    25
100
AcDbPolyline
 90
       41
 70
   128
 43
0.0
 10
1012.7708505021
 20
-815.0366221536
 10
1007.486996321
 20
-813.6533395893
 10
998.5359295978
 20
-811.0692041358
 10
989.5957683707
 20
-808.1853624207
 10
980.6774048489
 20
-805.0053279608
 10
971.7917046846
 20
-801.5329751384
 10
962.9494937347
 20
-797.7725344804
 10
954.1615448713
 20
-793.7285875045
 10
945.4385648563
 20
-789.4060611373
 10
936.7911812972
 20
-784.8102217113
 10
928.2299296988
 20
-779.9466685488
 10
919.7652406275
 20
-774.8213271402
 10
911.4074270031
 20
-769.4404419245
 10
903.1666715339
 20
-763.8105686816
 10
895.0530143111
 20
-757.9385665447
 10
887.0763405763
 20
-751.8315896439
 10
879.2463686777
 20
-745.4970783899
 10
871.57263823
 20
-738.9427504089
 10
864.0644984915
 20
-732.1765911398
 10
856.7310969741
 20
-725.2068441056
 10
849.5813682979
 20
-718.0420008694
 10
842.624023306
 20
-710.690790689
 10
835.8675384515
 20
-703.1621698816
 10
829.3201454704
 20
-695.465310912
 10
822.9898213526
 20
-687.6095912173
 10
816.8842786229
 20
-679.6045817818
 10
811.0109559446
 20
-671.4600354764
 10
805.3770090567
 20
-663.1858751762
 10
799.9893020556
 20
-654.7921816711
 10
794.8543990324
 20
-646.2891813836
 10
789.9785560755
 20
-637.6872339098
 10
785.3677136484
 20
-628.9968193976
 10
781.0274893523
 20
-620.2285257784
 10
776.9631710822
 20
-611.3930358675
 10
773.1797105835
 20
-602.5011143482
 10
769.6817174203
 20
-593.5635946573
 10
766.4734533584
 20
-584.5913657856
 10
763.5588271732
 20
-575.5953590122
 10
760.9413898879
 20
-566.5865345854
 10
758.6243304466
 20
-557.5758683702
 10
757.7269114377
 20
-553.7293185484
  0
LWPOLYLINE
  5
CC
330
1F
100
AcDbEntity
  8
0
  6
Continuous
 62
     7
370
    25
100
AcDbPolyline
 90
      139
 70
   128
 43
0.0
 10
665.2298729871
 20
-507.8653759322
 10
665.6476774609
 20
-499.9069926292
 10
666.4227909984
 20
-490.7161361063
 10
667.5068459428
 20
-481.6379806182
 10
668.8987396339
 20
-472.6817601271
 10
670.597056289
 20
-463.8565845672
 10
672.6000684438
 20
-455.1714305788
 10
674.9057387086
 20
-446.6351323775
 10
677.5117218416
 20
-438.2563727683
 10
680.4153671336
 20
-430.0436743136
 10
683.6137211047
 20
-422.005390665
 10
687.1035305081
 20
-414.1496980655
 10
690.8812456396
 20
-406.4845870334
 10
694.9430239478
 20
-399.0178542344
 10
699.284733943
 20
-391.7570945514
 10
703.9019593993
 20
-384.7096933591
 10
708.7900038466
 20
-377.8828190118
 10
713.9438953481
 20
-371.2834155521
 10
719.3583915569
 20
-364.9181956478
 10
725.0279850491
 20
-358.7936337636
 10
730.9469089249
 20
-352.9159595762
 10
737.1091426753
 20
-347.2911516371
 10
743.5084183052
 20
-341.9249312916
 10
750.1382267096
 20
-336.8227568594
 10
756.9918242939
 20
-331.9898180827
 10
764.0622398338
 20
-327.431030847
 10
771.3422815654
 20
-323.1510321809
 10
778.8245445012
 20
-319.15417554
 10
786.5014179616
 20
-315.4445263782
 10
794.3650933166
 20
-312.0258580125
 10
802.4075719281
 20
-308.9016477853
 10
810.620673286
 20
-306.075073527
 10
818.9960433292
 20
-303.5490103237
 10
827.5251629429
 20
-301.3260275931
 10
836.1993566237
 20
-299.4083864703
 10
845.0098013047
 20
-297.7980375088
 10
853.9475353292
 20
-296.4966186954
 10
863.0034675667
 20
-295.505453785
 10
872.1683866597
 20
-294.8255509537
 10
881.4329703936
 20
-294.4576017734
 10
890.7877951783
 20
-294.4019805082
 10
900.2233456341
 20
-294.6587437341
 10
909.7300242701
 20
-295.227630281
 10
919.2981612464
 20
-296.1080614988
 10
928.9180242101
 20
-297.2991418455
 10
938.5798281943
 20
-298.7996597985
 10
948.2737455715
 20
-300.6080890867
 10
957.9899160495
 20
-302.7225902433
 10
967.7184567013
 20
-305.1410124762
 10
977.449472017
 20
-307.8608958563
 10
987.17306397
 20
-310.8794738194
 10
996.8793420843
 20
-314.1936759804
 10
1006.5584334947
 20
-317.8001312561
 10
1016.2004929896
 20
-321.6951712942
 10
1025.7957130248
 20
-325.8748342051
 10
1035.3343336993
 20
-330.334868591
 10
1044.8066526831
 20
-335.0707378709
 10
1054.2030350857
 20
-340.0776248948
 10
1063.5139232563
 20
-345.3504368433
 10
1072.7298465061
 20
-350.8838104085
 10
1081.8414307405
 20
-356.6721172484
 10
1090.8394079952
 20
-362.7094697127
 10
1099.7146258624
 20
-368.9897268312
 10
1108.4580568006
 20
-375.5065005597
 10
1117.0608073171
 20
-382.2531622787
 10
1125.5141270142
 20
-389.2228495346
 10
1133.8094174894
 20
-396.408473021
 10
1141.938241082
 20
-403.8027237889
 10
1149.8923294548
 20
-411.3980806815
 10
1157.6635920053
 20
-419.1868179843
 10
1165.2441240941
 20
-427.1610132835
 10
1172.626215086
 20
-435.3125555242
 10
1179.8023561927
 20
-443.6331532609
 10
1186.7652481104
 20
-452.1143430912
 10
1193.5078084445
 20
-460.7474982643
 10
1200.0231789134
 20
-469.5238374558
 10
1206.3047323246
 20
-478.4344337
 10
1212.3460793157
 20
-487.4702234699
 10
1218.1410748533
 20
-496.6220158962
 10
1223.6838244834
 20
-505.8805021162
 10
1228.9686903274
 20
-515.2362647421
 10
1233.9902968163
 20
-524.6797874402
 10
1238.7435361588
 20
-534.2014646104
 10
1243.2235735367
 20
-543.791611157
 10
1247.4258520226
 20
-553.4404723397
 10
1251.346097215
 20
-563.1382336958
 10
1254.9803215866
 20
-572.8750310233
 10
1258.3248285394
 20
-582.640960414
 10
1261.3762161653
 20
-592.4260883279
 10
1264.1313807065
 20
-602.2204616969
 10
1266.5875197119
 20
-612.0141180487
 10
1268.7421348884
 20
-621.7970956405
 10
1270.5930346416
 20
-631.5594435913
 10
1272.1383363051
 20
-641.2912320041
 10
1273.3764680556
 20
-650.9825620655
 10
1274.3061705114
 20
-660.6235761153
 10
1274.9264980138
 20
-670.2044676725
 10
1275.2368195888
 20
-679.7154914107
 10
1275.2368195888
 20
-689.1469730704
 10
1274.9264980138
 20
-698.4893192992
 10
1274.3061705114
 20
-707.7330274102
 10
1273.3764680556
 20
-716.8686950472
 10
1272.1383363051
 20
-725.887029749
 10
1270.5930346416
 20
-734.7788584011
 10
1268.7421348884
 20
-743.5351365661
 10
1266.5875197119
 20
-752.1469576835
 10
1264.1313807065
 20
-760.6055621294
 10
1261.3762161653
 20
-768.9023461259
 10
1258.3248285394
 20
-777.028870493
 10
1254.9803215866
 20
-784.9768692324
 10
1251.346097215
 20
-792.7382579354
 10
1247.4258520226
 20
-800.3051420063
 10
1243.2235735367
 20
-807.669824692
 10
1238.7435361588
 20
-814.8248149112
 10
1233.9902968163
 20
-821.762834874
 10
1228.9686903274
 20
-828.4768274847
 10
1223.6838244834
 20
-834.9599635198
 10
1218.1410748533
 20
-841.2056485743
 10
1212.3460793157
 20
-847.2075297699
 10
1206.3047323246
 20
-852.9595022163
 10
1200.0231789134
 20
-858.4557152209
 10
1193.5078084445
 20
-863.6905782406
 10
1186.7652481104
 20
-868.6587665672
 10
1179.8023561927
 20
-873.3552267445
 10
1172.626215086
 20
-877.7751817078
 10
1165.2441240941
 20
-881.9141356435
 10
1157.6635920053
 20
-885.7678785615
 10
1149.8923294548
 20
-889.3324905779
 10
1141.9382410819
 20
-892.604345902
 10
1133.8094174894
 20
-895.5801165242
 10
1125.5141270142
 20
-898.2567756014
 10
1117.0608073171
 20
-900.6316005355
 10
1108.4580568006
 20
-902.7021757429
 10
1099.7146258624
 20
-904.4663951116
 10
1090.8394079952
 20
-905.9224641433
 10
1081.8414307405
 20
-907.0689017787
 10
1072.7298465061
 20
-907.904541904
 10
1063.5139232563
 20
-908.4285345373
 10
1056.3776418315
 20
-908.6189447598
  0
LWPOLYLINE
  5
CD
330
1F
100
AcDbEntity
  8
0
  6
Continuous
 62
     7
370
    25
100
AcDbPolyline
 90
      101
 70
   128
 43
0.0
 10
766.5120315865
 20
-318.1819987329
 10
768.2825400393
 20
-316.4752390319
 10
774.4447737897
 20
-310.8504310927
 10
780.8440494196
 20
-305.4842107472
 10
787.473857824
 20
-300.3820363151
 10
794.3274554083
 20
-295.5490975384
 10
801.3978709482
 20
-290.9903103026
 10
808.6779126798
 20
-286.7103116366
 10
816.1601756156
 20
-282.7134549957
 10
823.837049076
 20
-279.0038058338
 10
831.700724431
 20
-275.5851374682
 10
839.7432030425
 20
-272.4609272409
 10
847.9563044004
 20
-269.6343529826
 10
856.3316744436
 20
-267.1082897794
 10
864.8607940573
 20
-264.8853070487
 10
873.5349877381
 20
-262.967665926
 10
882.3454324191
 20
-261.3573169644
 10
891.2831664436
 20
-260.055898151
 10
900.3390986811
 20
-259.0647332407
 10
909.5040177741
 20
-258.3848304094
 10
918.768601508
 20
-258.0168812291
 10
928.1234262927
 20
-257.9612599639
 10
937.5589767485
 20
-258.2180231898
 10
947.0656553845
 20
-258.7869097367
 10
956.6337923608
 20
-259.6673409545
 10
966.2536553245
 20
-260.8584213011
 10
975.9154593087
 20
-262.3589392541
 10
985.6093766859
 20
-264.1673685424
 10
995.325547164
 20
-266.2818696989
 10
1005.0540878157
 20
-268.7002919318
 10
1014.7851031314
 20
-271.420175312
 10
1024.5086950844
 20
-274.4387532751
 10
1034.2149731987
 20
-277.7529554361
 10
1043.8940646091
 20
-281.3594107117
 10
1053.536124104
 20
-285.2544507499
 10
1063.1313441392
 20
-289.4341136607
 10
1072.6699648137
 20
-293.8941480467
 10
1082.1422837975
 20
-298.6300173266
 10
1091.5386662001
 20
-303.6369043504
 10
1100.8495543707
 20
-308.909716299
 10
1110.0654776205
 20
-314.4430898641
 10
1119.1770618549
 20
-320.2313967041
 10
1128.1750391096
 20
-326.2687491684
 10
1137.0502569768
 20
-332.5490062868
 10
1145.793687915
 20
-339.0657800154
 10
1154.3964384315
 20
-345.8124417343
 10
1162.8497581286
 20
-352.7821289903
 10
1171.1450486038
 20
-359.9677524767
 10
1179.2738721964
 20
-367.3620032445
 10
1187.2279605692
 20
-374.9573601371
 10
1194.9992231197
 20
-382.7460974399
 10
1202.5797552085
 20
-390.7202927391
 10
1209.9618462004
 20
-398.8718349798
 10
1217.1379873071
 20
-407.1924327166
 10
1224.1008792248
 20
-415.6736225469
 10
1230.8434395589
 20
-424.3067777199
 10
1237.3588100278
 20
-433.0831169114
 10
1243.640363439
 20
-441.9937131556
 10
1249.6817104301
 20
-451.0295029255
 10
1255.4767059677
 20
-460.1812953519
 10
1261.0194555978
 20
-469.4397815719
 10
1266.3043214418
 20
-478.7955441978
 10
1271.3259279307
 20
-488.2390668958
 10
1276.0791672733
 20
-497.7607440661
 10
1280.5592046511
 20
-507.3508906127
 10
1284.761483137
 20
-516.9997517954
 10
1288.6817283295
 20
-526.6975131515
 10
1292.315952701
 20
-536.4343104789
 10
1295.6604596538
 20
-546.2002398696
 10
1298.7118472797
 20
-555.9853677835
 10
1301.4670118209
 20
-565.7797411525
 10
1303.9231508263
 20
-575.5733975044
 10
1306.0777660028
 20
-585.3563750962
 10
1307.928665756
 20
-595.118723047
 10
1309.4739674196
 20
-604.8505114597
 10
1310.71209917
 20
-614.5418415212
 10
1311.6418016258
 20
-624.1828555709
 10
1312.2621291282
 20
-633.7637471282
 10
1312.5724507032
 20
-643.2747708664
 10
1312.5724507032
 20
-652.7062525261
 10
1312.2621291282
 20
-662.0485987549
 10
1311.6418016258
 20
-671.2923068658
 10
1310.71209917
 20
-680.4279745028
 10
1309.4739674196
 20
-689.4463092047
 10
1307.928665756
 20
-698.3381378567
 10
1306.0777660028
 20
-707.0944160217
 10
1303.9231508263
 20
-715.7062371392
 10
1301.4670118209
 20
-724.164841585
 10
1298.7118472797
 20
-732.4616255815
 10
1295.6604596538
 20
-740.5881499486
 10
1292.315952701
 20
-748.536148688
 10
1288.6817283295
 20
-756.2975373911
 10
1284.761483137
 20
-763.864421462
 10
1280.5592046511
 20
-771.2291041476
 10
1276.0791672733
 20
-778.3840943668
 10
1271.3259279307
 20
-785.3221143297
 10
1266.3043214418
 20
-792.0361069404
 10
1261.0194555978
 20
-798.5192429754
 10
1255.4767059677
 20
-804.76492803
 10
1249.6817104301
 20
-810.7668092256
 10
1248.4619610554
 20
-811.9676460384
  0
ENDSEC
  0
SECTION
  2
OBJECTS
  0
DICTIONARY
  5
C
330
0
100
AcDbDictionary
281
     1
  3
ACAD_GROUP
350
D
  3
ACAD_LAYOUT
350
1A
  3
ACAD_MLINESTYLE
350
17
  3
ACAD_PLOTSETTINGS
350
19
  3
ACAD_PLOTSTYLENAME
350
E
  3
ACAD_SCALELIST
350
47
  0
DICTIONARY
  5
D
102
{ACAD_REACTORS
330
C
102
}
330
C
100
AcDbDictionary
281
     1
  0
DICTIONARY
  5
1A
102
{ACAD_REACTORS
330
C
102
}
330
C
100
AcDbDictionary
281
     1
  3
Layout1
350
1E
  3
Layout2
350
26
  3
Model
350
22
  0
DICTIONARY
  5
17
102
{ACAD_REACTORS
330
C
102
}
330
C
100
AcDbDictionary
281
     1
  3
Standard
350
18
  0
DICTIONARY
  5
19
102
{ACAD_REACTORS
330
C
102
}
330
C
100
AcDbDictionary
281
     1
  0
ACDBDICTIONARYWDFLT
  5
E
102
{ACAD_REACTORS
330
C
102
}
330
C
100
AcDbDictionary
281
     1
  3
Normal
350
F
100
AcDbDictionaryWithDefault
340
F
  0
DICTIONARY
  5
47
102
{ACAD_REACTORS
330
C
102
}
330
C
100
AcDbDictionary
281
     1
  3
A0
350
48
  3
A1
350
49
  3
A2
350
4A
  3
A3
350
4B
  3
A4
350
4C
  3
A5
350
4D
  3
A6
350
4E
  3
A7
350
4F
  3
A8
350
50
  3
A9
350
51
  3
B0
350
52
  3
B1
350
53
  3
B2
350
54
  3
B3
350
55
  3
B4
350
56
  3
B5
350
57
  3
B6
350
58
  3
B7
350
59
  3
B8
350
5A
  3
B9
350
5B
  3
C0
350
5C
  3
C1
350
5D
  3
C2
350
5E
  3
C3
350
5F
  3
C4
350
60
  3
C5
350
61
  3
C6
350
62
  3
C7
350
63
  3
C8
350
64
  3
C9
350
65
  3
D0
350
66
  3
D1
350
67
  3
D2
350
68
  0
LAYOUT
  5
1E
102
{ACAD_REACTORS
330
1A
102
}
330
1A
100
AcDbPlotSettings
  1

  2
none_device
  4

  6

 40
0.0
 41
0.0
 42
0.0
 43
0.0
 44
0.0
 45
0.0
 46
0.0
 47
0.0
 48
0.0
 49
0.0
140
0.0
141
0.0
142
1.0
143
1.0
 70
   688
 72
     1
 73
     0
 74
     5
  7

 75
    16
147
1.0
148
0.0
149
0.0
100
AcDbLayout
  1
Layout1
 70
     1
 71
     1
 10
0.0
 20
0.0
 11
420.0
 21
297.0
 12
0.0
 22
0.0
 32
0.0
 14
1.0000000000E+20
 24
1.0000000000E+20
 34
1.0000000000E+20
 15
-1.0000000000E+20
 25
-1.0000000000E+20
 35
-1.0000000000E+20
146
0.0
 13
0.0
 23
0.0
 33
0.0
 16
1.0
 26
0.0
 36
0.0
 17
0.0
 27
1.0
 37
0.0
 76
     0
330
1B
  0
LAYOUT
  5
26
102
{ACAD_REACTORS
330
1A
102
}
330
1A
100
AcDbPlotSettings
  1

  2
none_device
  4

  6

 40
0.0
 41
0.0
 42
0.0
 43
0.0
 44
0.0
 45
0.0
 46
0.0
 47
0.0
 48
0.0
 49
0.0
140
0.0
141
0.0
142
1.0
143
1.0
 70
   688
 72
     1
 73
     0
 74
     5
  7

 75
    16
147
1.0
148
0.0
149
0.0
100
AcDbLayout
  1
Layout2
 70
     1
 71
     2
 10
0.0
 20
0.0
 11
0.0
 21
0.0
 12
0.0
 22
0.0
 32
0.0
 14
0.0
 24
0.0
 34
0.0
 15
0.0
 25
0.0
 35
0.0
146
0.0
 13
0.0
 23
0.0
 33
0.0
 16
1.0
 26
0.0
 36
0.0
 17
0.0
 27
1.0
 37
0.0
 76
     0
330
23
  0
LAYOUT
  5
22
102
{ACAD_REACTORS
330
1A
102
}
330
1A
100
AcDbPlotSettings
  1

  2
none_device
  4
Letter_(8.50_x_11.00_Inches)
  6

 40
6.35
 41
6.35
 42
6.35000508
 43
6.35000508
 44
215.9
 45
279.4
 46
0.0
 47
0.0
 48
0.0
 49
0.0
140
0.0
141
0.0
142
1.0
143
1.0
 70
  1712
 72
     1
 73
     0
 74
     0
  7

 75
     0
147
1.0
148
0.0
149
0.0
100
AcDbLayout
  1
Model
 70
     1
 71
     0
 10
0.0
 20
0.0
 11
279.4
 21
215.9
 12
0.0
 22
0.0
 32
0.0
 14
0.0
 24
0.0
 34
0.0
 15
279.4
 25
215.9
 35
0.0
146
0.0
 13
0.0
 23
0.0
 33
0.0
 16
1.0
 26
0.0
 36
0.0
 17
0.0
 27
1.0
 37
0.0
 76
     0
330
1F
331
29
  0
MLINESTYLE
  5
18
102
{ACAD_REACTORS
330
17
102
}
330
17
100
AcDbMlineStyle
  2
Standard
 70
     0
  3

 62
   256
 51
90.0
 52
90.0
 71
     2
 49
0.5
 62
   256
  6
BYLAYER
 49
-0.5
 62
   256
  6
BYLAYER
  0
ACDBPLACEHOLDER
  5
F
102
{ACAD_REACTORS
330
E
102
}
330
E
  0
SCALE
  5
48
102
{ACAD_REACTORS
330
47
102
}
330
47
100
AcDbScale
 70
     0
300
1:1
140
1.0
141
1.0
290
     1
  0
SCALE
  5
49
102
{ACAD_REACTORS
330
47
102
}
330
47
100
AcDbScale
 70
     0
300
1:2
140
1.0
141
2.0
290
     0
  0
SCALE
  5
4A
102
{ACAD_REACTORS
330
47
102
}
330
47
100
AcDbScale
 70
     0
300
1:4
140
1.0
141
4.0
290
     0
  0
SCALE
  5
4B
102
{ACAD_REACTORS
330
47
102
}
330
47
100
AcDbScale
 70
     0
300
1:5
140
1.0
141
5.0
290
     0
  0
SCALE
  5
4C
102
{ACAD_REACTORS
330
47
102
}
330
47
100
AcDbScale
 70
     0
300
1:8
140
1.0
141
8.0
290
     0
  0
SCALE
  5
4D
102
{ACAD_REACTORS
330
47
102
}
330
47
100
AcDbScale
 70
     0
300
1:10
140
1.0
141
10.0
290
     0
  0
SCALE
  5
4E
102
{ACAD_REACTORS
330
47
102
}
330
47
100
AcDbScale
 70
     0
300
1:16
140
1.0
141
16.0
290
     0
  0
SCALE
  5
4F
102
{ACAD_REACTORS
330
47
102
}
330
47
100
AcDbScale
 70
     0
300
1:20
140
1.0
141
20.0
290
     0
  0
SCALE
  5
50
102
{ACAD_REACTORS
330
47
102
}
330
47
100
AcDbScale
 70
     0
300
1:30
140
1.0
141
30.0
290
     0
  0
SCALE
  5
51
102
{ACAD_REACTORS
330
47
102
}
330
47
100
AcDbScale
 70
     0
300
1:40
140
1.0
141
40.0
290
     0
  0
SCALE
  5
52
102
{ACAD_REACTORS
330
47
102
}
330
47
100
AcDbScale
 70
     0
300
1:50
140
1.0
141
50.0
290
     0
  0
SCALE
  5
53
102
{ACAD_REACTORS
330
47
102
}
330
47
100
AcDbScale
 70
     0
300
1:100
140
1.0
141
100.0
290
     0
  0
SCALE
  5
54
102
{ACAD_REACTORS
330
47
102
}
330
47
100
AcDbScale
 70
     0
300
2:1
140
2.0
141
1.0
290
     0
  0
SCALE
  5
55
102
{ACAD_REACTORS
330
47
102
}
330
47
100
AcDbScale
 70
     0
300
4:1
140
4.0
141
1.0
290
     0
  0
SCALE
  5
56
102
{ACAD_REACTORS
330
47
102
}
330
47
100
AcDbScale
 70
     0
300
8:1
140
8.0
141
1.0
290
     0
  0
SCALE
  5
57
102
{ACAD_REACTORS
330
47
102
}
330
47
100
AcDbScale
 70
     0
300
10:1
140
10.0
141
1.0
290
     0
  0
SCALE
  5
58
102
{ACAD_REACTORS
330
47
102
}
330
47
100
AcDbScale
 70
     0
300
100:1
140
100.0
141
1.0
290
     0
  0
SCALE
  5
59
102
{ACAD_REACTORS
330
47
102
}
330
47
100
AcDbScale
 70
     0
300
1/128" = 1'-0"
140
0.0078125
141
12.0
290
     0
  0
SCALE
  5
5A
102
{ACAD_REACTORS
330
47
102
}
330
47
100
AcDbScale
 70
     0
300
1/64" = 1'-0"
140
0.015625
141
12.0
290
     0
  0
SCALE
  5
5B
102
{ACAD_REACTORS
330
47
102
}
330
47
100
AcDbScale
 70
     0
300
1/32" = 1'-0"
140
0.03125
141
12.0
290
     0
  0
SCALE
  5
5C
102
{ACAD_REACTORS
330
47
102
}
330
47
100
AcDbScale
 70
     0
300
1/16" = 1'-0"
140
0.0625
141
12.0
290
     0
  0
SCALE
  5
5D
102
{ACAD_REACTORS
330
47
102
}
330
47
100
AcDbScale
 70
     0
300
3/32" = 1'-0"
140
0.09375
141
12.0
290
     0
  0
SCALE
  5
5E
102
{ACAD_REACTORS
330
47
102
}
330
47
100
AcDbScale
 70
     0
300
1/8" = 1'-0"
140
0.125
141
12.0
290
     0
  0
SCALE
  5
5F
102
{ACAD_REACTORS
330
47
102
}
330
47
100
AcDbScale
 70
     0
300
3/16" = 1'-0"
140
0.1875
141
12.0
290
     0
  0
SCALE
  5
60
102
{ACAD_REACTORS
330
47
102
}
330
47
100
AcDbScale
 70
     0
300
1/4" = 1'-0"
140
0.25
141
12.0
290
     0
  0
SCALE
  5
61
102
{ACAD_REACTORS
330
47
102
}
330
47
100
AcDbScale
 70
     0
300
3/8" = 1'-0"
140
0.375
141
12.0
290
     0
  0
SCALE
  5
62
102
{ACAD_REACTORS
330
47
102
}
330
47
100
AcDbScale
 70
     0
300
1/2" = 1'-0"
140
0.5
141
12.0
290
     0
  0
SCALE
  5
63
102
{ACAD_REACTORS
330
47
102
}
330
47
100
AcDbScale
 70
     0
300
3/4" = 1'-0"
140
0.75
141
12.0
290
     0
  0
SCALE
  5
64
102
{ACAD_REACTORS
330
47
102
}
330
47
100
AcDbScale
 70
     0
300
1" = 1'-0"
140
1.0
141
12.0
290
     0
  0
SCALE
  5
65
102
{ACAD_REACTORS
330
47
102
}
330
47
100
AcDbScale
 70
     0
300
1-1/2" = 1'-0"
140
1.5
141
12.0
290
     0
  0
SCALE
  5
66
102
{ACAD_REACTORS
330
47
102
}
330
47
100
AcDbScale
 70
     0
300
3" = 1'-0"
140
3.0
141
12.0
290
     0
  0
SCALE
  5
67
102
{ACAD_REACTORS
330
47
102
}
330
47
100
AcDbScale
 70
     0
300
6" = 1'-0"
140
6.0
141
12.0
290
     0
  0
SCALE
  5
68
102
{ACAD_REACTORS
330
47
102
}
330
47
100
AcDbScale
 70
     0
300
1'-0" = 1'-0"
140
12.0
141
12.0
290
     0
  0
ENDSEC
  0
EOF
